  0
SECTION
  2
HEADER
  9
$ACADVER
  1
AC1015
  9
$ACADMAINTVER
 70
     6
  9
$DWGCODEPAGE
  3
ANSI_1254
  9
$INSBASE
 10
0.0
 20
0.0
 30
0.0
  9
$EXTMIN
 10
0.0
 20
0.0
 30
0.0
  9
$EXTMAX
 10
279.4
 20
215.9
 30
0.0
  9
$LIMMIN
 10
0.0
 20
0.0
  9
$LIMMAX
 10
279.4
 20
215.9
  9
$ORTHOMODE
 70
     0
  9
$REGENMODE
 70
     1
  9
$FILLMODE
 70
     1
  9
$QTEXTMODE
 70
     0
  9
$MIRRTEXT
 70
     1
  9
$LTSCALE
 40
1.0
  9
$ATTMODE
 70
     1
  9
$TEXTSIZE
 40
3.5
  9
$TRACEWID
 40
1.0
  9
$TEXTSTYLE
  7
Standard
  9
$CLAYER
  8
0
  9
$CELTYPE
  6
ByLayer
  9
$CECOLOR
 62
   256
  9
$CELTSCALE
 40
1.0
  9
$DISPSILH
 70
     0
  9
$DIMSCALE
 40
1.0
  9
$DIMASZ
 40
3.5
  9
$DIMEXO
 40
1.0
  9
$DIMDLI
 40
3.75
  9
$DIMRND
 40
0.0
  9
$DIMDLE
 40
0.0
  9
$DIMEXE
 40
1.0
  9
$DIMTP
 40
0.0
  9
$DIMTM
 40
0.0
  9
$DIMTXT
 40
3.5
  9
$DIMCEN
 40
2.5
  9
$DIMTSZ
 40
0.0
  9
$DIMTOL
 70
     0
  9
$DIMLIM
 70
     0
  9
$DIMTIH
 70
     1
  9
$DIMTOH
 70
     1
  9
$DIMSE1
 70
     0
  9
$DIMSE2
 70
     0
  9
$DIMTAD
 70
     1
  9
$DIMZIN
 70
     0
  9
$DIMBLK
  1

  9
$DIMASO
 70
     1
  9
$DIMSHO
 70
     1
  9
$DIMPOST
  1

  9
$DIMAPOST
  1

  9
$DIMALT
 70
     0
  9
$DIMALTD
 70
     3
  9
$DIMALTF
 40
0.0393700787
  9
$DIMLFAC
 40
1.0
  9
$DIMTOFL
 70
     1
  9
$DIMTVP
 40
0.0
  9
$DIMTIX
 70
     0
  9
$DIMSOXD
 70
     0
  9
$DIMSAH
 70
     0
  9
$DIMBLK1
  1

  9
$DIMBLK2
  1

  9
$DIMSTYLE
  2
ISO-25
  9
$DIMCLRD
 70
     0
  9
$DIMCLRE
 70
     0
  9
$DIMCLRT
 70
     0
  9
$DIMTFAC
 40
1.0
  9
$DIMGAP
 40
1.524
  9
$DIMJUST
 70
     0
  9
$DIMSD1
 70
     0
  9
$DIMSD2
 70
     0
  9
$DIMTOLJ
 70
     0
  9
$DIMTZIN
 70
     0
  9
$DIMALTZ
 70
     0
  9
$DIMALTTZ
 70
     0
  9
$DIMUPT
 70
     0
  9
$DIMDEC
 70
     2
  9
$DIMTDEC
 70
     2
  9
$DIMALTU
 70
     2
  9
$DIMALTTD
 70
     3
  9
$DIMTXSTY
  7
Standard
  9
$DIMAUNIT
 70
     0
  9
$DIMADEC
 70
     2
  9
$DIMALTRND
 40
0.0
  9
$DIMAZIN
 70
     0
  9
$DIMDSEP
 70
    44
  9
$DIMATFIT
 70
     3
  9
$DIMFRAC
 70
     0
  9
$DIMLDRBLK
  1

  9
$DIMLUNIT
 70
     2
  9
$DIMLWD
 70
    -2
  9
$DIMLWE
 70
    -2
  9
$DIMTMOVE
 70
     0
  9
$LUNITS
 70
     2
  9
$LUPREC
 70
     2
  9
$SKETCHINC
 40
1.0
  9
$FILLETRAD
 40
10.0
  9
$AUNITS
 70
     0
  9
$AUPREC
 70
     2
  9
$MENU
  1
.
  9
$ELEVATION
 40
0.0
  9
$PELEVATION
 40
0.0
  9
$THICKNESS
 40
0.0
  9
$LIMCHECK
 70
     0
  9
$CHAMFERA
 40
0.0
  9
$CHAMFERB
 40
0.0
  9
$CHAMFERC
 40
0.0
  9
$CHAMFERD
 40
0.0
  9
$SKPOLY
 70
     0
  9
$TDCREATE
 40
2460608.530382002
  9
$TDUCREATE
 40
2460608.405382002
  9
$TDUPDATE
 40
2460608.530382176
  9
$TDUUPDATE
 40
2460608.405382176
  9
$TDINDWG
 40
0.0000000116
  9
$TDUSRTIMER
 40
0.0000000116
  9
$USRTIMER
 70
     1
  9
$ANGBASE
 50
0.0
  9
$ANGDIR
 70
     0
  9
$PDMODE
 70
     0
  9
$PDSIZE
 40
-1.0
  9
$PLINEWID
 40
0.0
  9
$SPLFRAME
 70
     0
  9
$SPLINETYPE
 70
     6
  9
$SPLINESEGS
 70
     8
  9
$HANDSEED
  5
D2
  9
$SURFTAB1
 70
     6
  9
$SURFTAB2
 70
     6
  9
$SURFTYPE
 70
     6
  9
$SURFU
 70
     6
  9
$SURFV
 70
     6
  9
$UCSBASE
  2

  9
$UCSNAME
  2

  9
$UCSORG
 10
0.0
 20
0.0
 30
0.0
  9
$UCSXDIR
 10
1.0
 20
0.0
 30
0.0
  9
$UCSYDIR
 10
0.0
 20
1.0
 30
0.0
  9
$UCSORTHOREF
  2

  9
$UCSORTHOVIEW
 70
     0
  9
$UCSORGTOP
 10
0.0
 20
0.0
 30
0.0
  9
$UCSORGBOTTOM
 10
0.0
 20
0.0
 30
0.0
  9
$UCSORGLEFT
 10
0.0
 20
0.0
 30
0.0
  9
$UCSORGRIGHT
 10
0.0
 20
0.0
 30
0.0
  9
$UCSORGFRONT
 10
0.0
 20
0.0
 30
0.0
  9
$UCSORGBACK
 10
0.0
 20
0.0
 30
0.0
  9
$PUCSBASE
  2

  9
$PUCSNAME
  2

  9
$PUCSORG
 10
0.0
 20
0.0
 30
0.0
  9
$PUCSXDIR
 10
1.0
 20
0.0
 30
0.0
  9
$PUCSYDIR
 10
0.0
 20
1.0
 30
0.0
  9
$PUCSORTHOREF
  2

  9
$PUCSORTHOVIEW
 70
     0
  9
$PUCSORGTOP
 10
0.0
 20
0.0
 30
0.0
  9
$PUCSORGBOTTOM
 10
0.0
 20
0.0
 30
0.0
  9
$PUCSORGLEFT
 10
0.0
 20
0.0
 30
0.0
  9
$PUCSORGRIGHT
 10
0.0
 20
0.0
 30
0.0
  9
$PUCSORGFRONT
 10
0.0
 20
0.0
 30
0.0
  9
$PUCSORGBACK
 10
0.0
 20
0.0
 30
0.0
  9
$USERI1
 70
     0
  9
$USERI2
 70
     0
  9
$USERI3
 70
     0
  9
$USERI4
 70
     0
  9
$USERI5
 70
     0
  9
$USERR1
 40
0.0
  9
$USERR2
 40
0.0
  9
$USERR3
 40
0.0
  9
$USERR4
 40
0.0
  9
$USERR5
 40
0.0
  9
$WORLDVIEW
 70
     1
  9
$SHADEDGE
 70
     3
  9
$SHADEDIF
 70
    70
  9
$TILEMODE
 70
     1
  9
$MAXACTVP
 70
    64
  9
$PINSBASE
 10
0.0
 20
0.0
 30
0.0
  9
$PLIMCHECK
 70
     0
  9
$PEXTMIN
 10
1.0000000000E+20
 20
1.0000000000E+20
 30
1.0000000000E+20
  9
$PEXTMAX
 10
-1.0000000000E+20
 20
-1.0000000000E+20
 30
-1.0000000000E+20
  9
$PLIMMIN
 10
0.0
 20
0.0
  9
$PLIMMAX
 10
420.0
 20
297.0
  9
$UNITMODE
 70
     0
  9
$VISRETAIN
 70
     1
  9
$PLINEGEN
 70
     0
  9
$PSLTSCALE
 70
     1
  9
$TREEDEPTH
 70
  3020
  9
$CMLSTYLE
  2
Standard
  9
$CMLJUST
 70
     0
  9
$CMLSCALE
 40
20.0
  9
$PROXYGRAPHICS
 70
     1
  9
$MEASUREMENT
 70
     1
  9
$CELWEIGHT
370
    -1
  9
$ENDCAPS
280
     0
  9
$JOINSTYLE
280
     0
  9
$LWDISPLAY
290
     1
  9
$INSUNITS
 70
     4
  9
$HYPERLINKBASE
  1

  9
$STYLESHEET
  1

  9
$XEDIT
290
     1
  9
$CEPSNTYPE
380
     0
  9
$PSTYLEMODE
290
     1
  9
$FINGERPRINTGUID
  2
{c36f0b57-1742-40e6-9915-accbd49c81ba}
  9
$VERSIONGUID
  2
{FAEB1C32-E019-11D5-929B-00C0DF256EC4}
  9
$EXTNAMES
290
     1
  9
$PSVPSCALE
 40
0.0
  9
$OLESTARTUP
290
     0
  0
ENDSEC
  0
SECTION
  2
CLASSES
  0
CLASS
  1
ACDBDICTIONARYWDFLT
  2
AcDbDictionaryWithDefault
  3
ObjectDBX Classes
 90
        0
280
     0
281
     0
  0
CLASS
  1
VISUALSTYLE
  2
AcDbVisualStyle
  3
ObjectDBX Classes
 90
     4095
280
     0
281
     0
  0
CLASS
  1
MATERIAL
  2
AcDbMaterial
  3
ObjectDBX Classes
 90
     1153
280
     0
281
     0
  0
CLASS
  1
SCALE
  2
AcDbScale
  3
ObjectDBX Classes
 90
     1153
280
     0
281
     0
  0
CLASS
  1
TABLESTYLE
  2
AcDbTableStyle
  3
ObjectDBX Classes
 90
     4095
280
     0
281
     0
  0
CLASS
  1
MLEADERSTYLE
  2
AcDbMLeaderStyle
  3
ACDB_MLEADERSTYLE_CLASS
 90
     4095
280
     0
281
     0
  0
CLASS
  1
SUN
  2
AcDbSun
  3
SCENEOE
 90
     1153
280
     0
281
     0
  0
CLASS
  1
ACDBPLACEHOLDER
  2
AcDbPlaceHolder
  3
ObjectDBX Classes
 90
        0
280
     0
281
     0
  0
CLASS
  1
LAYOUT
  2
AcDbLayout
  3
ObjectDBX Classes
 90
        0
280
     0
281
     0
  0
ENDSEC
  0
SECTION
  2
TABLES
  0
TABLE
  2
VPORT
  5
8
330
0
100
AcDbSymbolTable
 70
     1
  0
VPORT
  5
29
330
8
100
AcDbSymbolTableRecord
100
AcDbViewportTableRecord
  2
*Active
 70
     0
 10
0.0
 20
0.0
 11
1.0
 21
1.0
 12
139.7
 22
107.95
 13
0.0
 23
0.0
 14
10.0
 24
10.0
 15
10.0
 25
10.0
 16
0.0
 26
0.0
 36
1.0
 17
0.0
 27
0.0
 37
0.0
 40
215.9
 41
1.2941176471
 42
50.0
 43
0.0
 44
0.0
 50
0.0
 51
0.0
 71
     0
 72
  2000
 73
     1
 74
     3
 75
     0
 76
     0
 77
     0
 78
     0
281
     0
 65
     1
110
0.0
120
0.0
130
0.0
111
1.0
121
0.0
131
0.0
112
0.0
122
1.0
132
0.0
 79
     0
146
0.0
  0
ENDTAB
  0
TABLE
  2
LTYPE
  5
5
330
0
100
AcDbSymbolTable
 70
     6
  0
LTYPE
  5
14
330
5
100
AcDbSymbolTableRecord
100
AcDbLinetypeTableRecord
  2
ByBlock
 70
     0
  3

 72
    65
 73
     0
 40
0.0
  0
LTYPE
  5
15
330
5
100
AcDbSymbolTableRecord
100
AcDbLinetypeTableRecord
  2
ByLayer
 70
     0
  3

 72
    65
 73
     0
 40
0.0
  0
LTYPE
  5
16
330
5
100
AcDbSymbolTableRecord
100
AcDbLinetypeTableRecord
  2
Continuous
 70
     0
  3
Solid line
 72
    65
 73
     0
 40
0.0
  0
LTYPE
  5
6E
330
5
100
AcDbSymbolTableRecord
100
AcDbLinetypeTableRecord
  2
HIDDEN
 70
     0
  3
Hidden __ __ __ __ __ __ __ __ __ __ __ __ __ __
 72
    65
 73
     2
 40
1.905
 49
1.27
 74
     0
 49
-0.635
 74
     0
  0
LTYPE
  5
6F
330
5
100
AcDbSymbolTableRecord
100
AcDbLinetypeTableRecord
  2
PHANTOM
 70
     0
  3
Phantom ______  __  __  ______  __  __  ______
 72
    65
 73
     6
 40
12.7
 49
6.35
 74
     0
 49
-1.27
 74
     0
 49
1.27
 74
     0
 49
-1.27
 74
     0
 49
1.27
 74
     0
 49
-1.27
 74
     0
  0
LTYPE
  5
70
330
5
100
AcDbSymbolTableRecord
100
AcDbLinetypeTableRecord
  2
CENTER
 70
     0
  3
Center ____ _ ____ _ ____ _ ____ _ ____ _ ____
 72
    65
 73
     4
 40
10.16
 49
6.35
 74
     0
 49
-1.27
 74
     0
 49
1.27
 74
     0
 49
-1.27
 74
     0
  0
LTYPE
  5
71
330
5
100
AcDbSymbolTableRecord
100
AcDbLinetypeTableRecord
  2
CENTERX2
 70
     0
  3
Center (2x) ________  __  ________  __  _____
 72
    65
 73
     4
 40
20.32
 49
12.7
 74
     0
 49
-2.54
 74
     0
 49
2.54
 74
     0
 49
-2.54
 74
     0
  0
LTYPE
  5
72
330
5
100
AcDbSymbolTableRecord
100
AcDbLinetypeTableRecord
  2
DOT2
 70
     0
  3
Dot (.5x) ........................................
 72
    65
 73
     2
 40
0.635
 49
0.0
 74
     0
 49
-0.635
 74
     0
  0
ENDTAB
  0
TABLE
  2
LAYER
  5
2
330
0
100
AcDbSymbolTable
 70
    17
  0
LAYER
  5
10
330
2
100
AcDbSymbolTableRecord
100
AcDbLayerTableRecord
  2
0
 70
     0
 62
     7
  6
Continuous
370
    -3
390
F
  0
LAYER
  5
73
330
2
100
AcDbSymbolTableRecord
100
AcDbLayerTableRecord
  2
FORMAT
 70
     0
 62
     7
  6
Continuous
370
    -3
390
F
  0
LAYER
  5
74
330
2
100
AcDbSymbolTableRecord
100
AcDbLayerTableRecord
  2
YARDIMCI_GEOMETRI
 70
     0
 62
    -6
  6
Continuous
290
     0
370
    -3
390
F
  0
LAYER
  5
75
330
2
100
AcDbSymbolTableRecord
100
AcDbLayerTableRecord
  2
SAYFA_CERCEVESI
 70
     0
 62
     7
  6
Continuous
370
    25
390
F
  0
LAYER
  5
76
330
2
100
AcDbSymbolTableRecord
100
AcDbLayerTableRecord
  2
ANTET
 70
     0
 62
     7
  6
Continuous
370
    -3
390
F
  0
LAYER
  5
77
330
2
100
AcDbSymbolTableRecord
100
AcDbLayerTableRecord
  2
OLCU
 70
     0
 62
   150
  6
Continuous
370
    -3
390
F
  0
LAYER
  5
78
330
2
100
AcDbSymbolTableRecord
100
AcDbLayerTableRecord
  2
METIN
 70
     0
 62
    96
  6
Continuous
370
    -3
390
F
  0
LAYER
  5
79
330
2
100
AcDbSymbolTableRecord
100
AcDbLayerTableRecord
  2
BALON
 70
     0
 62
     5
  6
Continuous
370
    -3
390
F
  0
LAYER
  5
7A
330
2
100
AcDbSymbolTableRecord
100
AcDbLayerTableRecord
  2
VURGU
 70
     0
 62
     7
  6
Continuous
370
    -3
390
F
  0
LAYER
  5
7B
330
2
100
AcDbSymbolTableRecord
100
AcDbLayerTableRecord
  2
SILIK
 70
     0
 62
     7
  6
Continuous
370
    -3
390
F
  0
LAYER
  5
7C
330
2
100
AcDbSymbolTableRecord
100
AcDbLayerTableRecord
  2
MODEL
 70
     0
 62
     7
  6
Continuous
370
    -3
390
F
  0
LAYER
  5
7D
330
2
100
AcDbSymbolTableRecord
100
AcDbLayerTableRecord
  2
DETAYLANDıRMA
 70
     0
 62
   190
  6
Continuous
370
    -3
390
F
  0
LAYER
  5
7E
330
2
100
AcDbSymbolTableRecord
100
AcDbLayerTableRecord
  2
TOLERANS
 70
     0
 62
   230
  6
Continuous
370
    -3
390
F
  0
LAYER
  5
7F
330
2
100
AcDbSymbolTableRecord
100
AcDbLayerTableRecord
  2
MERKEZ_CIZGILERI
 70
     0
 62
    30
  6
Continuous
370
    -3
390
F
  0
LAYER
  5
80
330
2
100
AcDbSymbolTableRecord
100
AcDbLayerTableRecord
  2
KESIT-DETAY_CIZGILERI
 70
     0
 62
     7
  6
Continuous
370
    -3
390
F
  0
LAYER
  5
81
330
2
100
AcDbSymbolTableRecord
100
AcDbLayerTableRecord
  2
\U+041E\U+0421\U+0415\U+0412\U+042B\U+0415
 70
     0
 62
     7
  6
Continuous
370
    -3
390
F
  0
LAYER
  5
82
330
2
100
AcDbSymbolTableRecord
100
AcDbLayerTableRecord
  2
\U+0412\U+041E\U+0414\U+042F\U+041D\U+042B\U+0415_\U+0417\U+041D\U+0410\U+041A\U+0418
 70
     0
 62
    11
  6
Continuous
370
    -3
390
F
  0
ENDTAB
  0
TABLE
  2
STYLE
  5
3
330
0
100
AcDbSymbolTable
 70
     1
  0
STYLE
  5
11
330
3
100
AcDbSymbolTableRecord
100
AcDbTextStyleTableRecord
  2
Standard
 70
     0
 40
0.0
 41
1.0
 50
0.0
 71
     0
 42
3.5
  3
txt
  4

  0
ENDTAB
  0
TABLE
  2
VIEW
  5
6
330
0
100
AcDbSymbolTable
 70
     0
  0
ENDTAB
  0
TABLE
  2
UCS
  5
7
330
0
100
AcDbSymbolTable
 70
     0
  0
ENDTAB
  0
TABLE
  2
APPID
  5
9
330
0
100
AcDbSymbolTable
 70
     1
  0
APPID
  5
12
330
9
100
AcDbSymbolTableRecord
100
AcDbRegAppTableRecord
  2
ACAD
 70
     0
  0
ENDTAB
  0
TABLE
  2
DIMSTYLE
  5
A
330
0
100
AcDbSymbolTable
 70
     1
100
AcDbDimStyleTable
  0
DIMSTYLE
105
27
330
A
100
AcDbSymbolTableRecord
100
AcDbDimStyleTableRecord
  2
ISO-25
 70
     0
 41
2.5
 42
0.625
 43
3.75
 44
1.25
 73
     0
 74
     0
 77
     1
 78
     8
140
2.5
141
2.5
143
0.0393700787
147
0.625
171
     3
172
     1
178
     0
271
     2
272
     2
274
     3
278
    44
283
     0
284
     8
340
11
  0
ENDTAB
  0
TABLE
  2
BLOCK_RECORD
  5
1
330
0
100
AcDbSymbolTable
 70
     3
  0
BLOCK_RECORD
  5
1F
330
1
100
AcDbSymbolTableRecord
100
AcDbBlockTableRecord
  2
*Model_Space
340
22
  0
BLOCK_RECORD
  5
1B
330
1
100
AcDbSymbolTableRecord
100
AcDbBlockTableRecord
  2
*Paper_Space
340
1E
  0
BLOCK_RECORD
  5
23
330
1
100
AcDbSymbolTableRecord
100
AcDbBlockTableRecord
  2
*Paper_Space0
340
26
  0
BLOCK_RECORD
  5
88
330
1
100
AcDbSymbolTableRecord
100
AcDbBlockTableRecord
  2
SW_CENTERMARKSYMBOL_0
340
0
102
{BLKREFS
331
93
102
}
  0
BLOCK_RECORD
  5
9E
330
1
100
AcDbSymbolTableRecord
100
AcDbBlockTableRecord
  2
SW_CENTERMARKSYMBOL_1
340
0
102
{BLKREFS
331
A9
102
}
  0
ENDTAB
  0
ENDSEC
  0
SECTION
  2
BLOCKS
  0
BLOCK
  5
20
330
1F
100
AcDbEntity
  8
0
100
AcDbBlockBegin
  2
*Model_Space
 70
     0
 10
0.0
 20
0.0
 30
0.0
  3
*Model_Space
  1

  0
ENDBLK
  5
21
330
1F
100
AcDbEntity
  8
0
100
AcDbBlockEnd
  0
BLOCK
  5
1C
330
1B
100
AcDbEntity
 67
     1
  8
0
100
AcDbBlockBegin
  2
*Paper_Space
 70
     0
 10
0.0
 20
0.0
 30
0.0
  3
*Paper_Space
  1

  0
ENDBLK
  5
1D
330
1B
100
AcDbEntity
 67
     1
  8
0
100
AcDbBlockEnd
  0
BLOCK
  5
24
330
23
100
AcDbEntity
  8
0
100
AcDbBlockBegin
  2
*Paper_Space0
 70
     0
 10
0.0
 20
0.0
 30
0.0
  3
*Paper_Space0
  1

  0
ENDBLK
  5
25
330
23
100
AcDbEntity
  8
0
100
AcDbBlockEnd
  0
BLOCK
  5
89
330
88
100
AcDbEntity
  8
0
100
AcDbBlockBegin
  2
SW_CENTERMARKSYMBOL_0
 70
     0
 10
0.0
 20
0.0
 30
0.0
  3
SW_CENTERMARKSYMBOL_0
  1

  0
LINE
  5
8B
330
88
100
AcDbEntity
  8
FORMAT
 62
     0
100
AcDbLine
 10
0.0
 20
0.0
 30
0.0
 11
0.0
 21
2.5
 31
0.0
  0
LINE
  5
8C
330
88
100
AcDbEntity
  8
FORMAT
 62
     0
100
AcDbLine
 10
0.0
 20
0.0
 30
0.0
 11
-2.5
 21
0.0
 31
0.0
  0
LINE
  5
8D
330
88
100
AcDbEntity
  8
FORMAT
 62
     0
100
AcDbLine
 10
0.0
 20
0.0
 30
0.0
 11
0.0
 21
-2.5
 31
0.0
  0
LINE
  5
8E
330
88
100
AcDbEntity
  8
FORMAT
 62
     0
100
AcDbLine
 10
0.0
 20
0.0
 30
0.0
 11
2.5
 21
0.0
 31
0.0
  0
LINE
  5
8F
330
88
100
AcDbEntity
  8
FORMAT
 62
     0
100
AcDbLine
 10
0.0
 20
5.0
 30
0.0
 11
0.0
 21
127.5
 31
0.0
  0
LINE
  5
90
330
88
100
AcDbEntity
  8
FORMAT
 62
     0
100
AcDbLine
 10
-5.0
 20
0.0
 30
0.0
 11
-127.5
 21
0.0
 31
0.0
  0
LINE
  5
91
330
88
100
AcDbEntity
  8
FORMAT
 62
     0
100
AcDbLine
 10
0.0
 20
-5.0
 30
0.0
 11
0.0
 21
-127.5
 31
0.0
  0
LINE
  5
92
330
88
100
AcDbEntity
  8
FORMAT
 62
     0
100
AcDbLine
 10
5.0
 20
0.0
 30
0.0
 11
127.5
 21
0.0
 31
0.0
  0
ENDBLK
  5
8A
330
88
100
AcDbEntity
  8
0
100
AcDbBlockEnd
  0
BLOCK
  5
9F
330
9E
100
AcDbEntity
  8
0
100
AcDbBlockBegin
  2
SW_CENTERMARKSYMBOL_1
 70
     0
 10
0.0
 20
0.0
 30
0.0
  3
SW_CENTERMARKSYMBOL_1
  1

  0
LINE
  5
A1
330
9E
100
AcDbEntity
  8
FORMAT
 62
     0
100
AcDbLine
 10
0.0
 20
0.0
 30
0.0
 11
0.0
 21
2.5
 31
0.0
  0
LINE
  5
A2
330
9E
100
AcDbEntity
  8
FORMAT
 62
     0
100
AcDbLine
 10
0.0
 20
0.0
 30
0.0
 11
-2.5
 21
0.0
 31
0.0
  0
LINE
  5
A3
330
9E
100
AcDbEntity
  8
FORMAT
 62
     0
100
AcDbLine
 10
0.0
 20
0.0
 30
0.0
 11
0.0
 21
-2.5
 31
0.0
  0
LINE
  5
A4
330
9E
100
AcDbEntity
  8
FORMAT
 62
     0
100
AcDbLine
 10
0.0
 20
0.0
 30
0.0
 11
2.5
 21
0.0
 31
0.0
  0
LINE
  5
A5
330
9E
100
AcDbEntity
  8
FORMAT
 62
     0
100
AcDbLine
 10
0.0
 20
5.0
 30
0.0
 11
0.0
 21
127.5
 31
0.0
  0
LINE
  5
A6
330
9E
100
AcDbEntity
  8
FORMAT
 62
     0
100
AcDbLine
 10
-5.0
 20
0.0
 30
0.0
 11
-127.5
 21
0.0
 31
0.0
  0
LINE
  5
A7
330
9E
100
AcDbEntity
  8
FORMAT
 62
     0
100
AcDbLine
 10
0.0
 20
-5.0
 30
0.0
 11
0.0
 21
-127.5
 31
0.0
  0
LINE
  5
A8
330
9E
100
AcDbEntity
  8
FORMAT
 62
     0
100
AcDbLine
 10
5.0
 20
0.0
 30
0.0
 11
127.5
 21
0.0
 31
0.0
  0
ENDBLK
  5
A0
330
9E
100
AcDbEntity
  8
0
100
AcDbBlockEnd
  0
ENDSEC
  0
SECTION
  2
ENTITIES
  0
LINE
  5
83
330
1F
100
AcDbEntity
  8
0
  6
Continuous
 62
     7
370
    25
100
AcDbLine
 10
37.1765957447
 20
-12.0914893617
 30
0.0
 11
329.1765957447
 21
-12.0914893617
 31
0.0
  0
LINE
  5
84
330
1F
100
AcDbEntity
  8
0
  6
Continuous
 62
     7
370
    25
100
AcDbLine
 10
329.1765957447
 20
237.9085106383
 30
0.0
 11
37.1765957447
 21
237.9085106383
 31
0.0
  0
CIRCLE
  5
85
330
1F
100
AcDbEntity
  8
0
  6
Continuous
 62
     7
370
    25
100
AcDbCircle
 10
37.1765957447
 20
112.9085106383
 30
0.0
 40
102.3
  0
CIRCLE
  5
86
330
1F
100
AcDbEntity
  8
0
  6
Continuous
 62
     7
370
    25
100
AcDbCircle
 10
37.1765957447
 20
112.9085106383
 30
0.0
 40
125.0
  0
LINE
  5
87
330
1F
100
AcDbEntity
  8
0
  6
Continuous
 62
     7
370
    25
100
AcDbLine
 10
329.1765957447
 20
237.9085106383
 30
0.0
 11
329.1765957447
 21
-12.0914893617
 31
0.0
  0
INSERT
  5
93
330
1F
100
AcDbEntity
  8
FORMAT
 62
     7
100
AcDbBlockReference
  2
SW_CENTERMARKSYMBOL_0
 10
37.1765957447
 20
112.9085106383
 30
0.0
  0
LINE
  5
94
330
1F
100
AcDbEntity
  8
0
  6
Continuous
 62
     7
370
    25
100
AcDbLine
 10
-589.3869856322
 20
237.9085106383
 30
0.0
 11
-884.3869856322
 21
237.9085106383
 31
0.0
  0
LINE
  5
95
330
1F
100
AcDbEntity
  8
0
  6
Continuous
 62
     7
370
    25
100
AcDbLine
 10
-294.3869856322
 20
237.9085106383
 30
0.0
 11
-589.3869856322
 21
237.9085106383
 31
0.0
  0
LINE
  5
96
330
1F
100
AcDbEntity
  8
0
  6
Continuous
 62
     7
370
    25
100
AcDbLine
 10
-589.3869856322
 20
-12.0914893617
 30
0.0
 11
-294.3869856322
 21
-12.0914893617
 31
0.0
  0
LINE
  5
97
330
1F
100
AcDbEntity
  8
0
  6
Continuous
 62
     7
370
    25
100
AcDbLine
 10
-884.3869856322
 20
-12.0914893617
 30
0.0
 11
-589.3869856322
 21
-12.0914893617
 31
0.0
  0
CIRCLE
  5
98
330
1F
100
AcDbEntity
  8
0
  6
Continuous
 62
     7
370
    25
100
AcDbCircle
 10
-589.3869856322
 20
112.9085106383
 30
0.0
 40
102.3000000000001
  0
CIRCLE
  5
99
330
1F
100
AcDbEntity
  8
0
  6
Continuous
 62
     7
370
    25
100
AcDbCircle
 10
-589.3869856322
 20
112.9085106383
 30
0.0
 40
125.0000000000001
  0
LINE
  5
9A
330
1F
100
AcDbEntity
  8
0
  6
Continuous
 62
     7
370
    25
100
AcDbLine
 10
-884.3869856322
 20
112.9085106383
 30
0.0
 11
-884.3869856322
 21
237.9085106383
 31
0.0
  0
LINE
  5
9B
330
1F
100
AcDbEntity
  8
0
  6
Continuous
 62
     7
370
    25
100
AcDbLine
 10
-884.3869856322
 20
-12.0914893617
 30
0.0
 11
-884.3869856322
 21
112.9085106383
 31
0.0
  0
LINE
  5
9C
330
1F
100
AcDbEntity
  8
0
  6
Continuous
 62
     7
370
    25
100
AcDbLine
 10
-294.3869856322
 20
112.9085106383
 30
0.0
 11
-294.3869856322
 21
237.9085106383
 31
0.0
  0
LINE
  5
9D
330
1F
100
AcDbEntity
  8
0
  6
Continuous
 62
     7
370
    25
100
AcDbLine
 10
-294.3869856322
 20
-12.0914893617
 30
0.0
 11
-294.3869856322
 21
112.9085106383
 31
0.0
  0
INSERT
  5
A9
330
1F
100
AcDbEntity
  8
FORMAT
 62
     7
100
AcDbBlockReference
  2
SW_CENTERMARKSYMBOL_1
 10
-589.3869856322
 20
112.9085106383
 30
0.0
  0
LINE
  5
AA
330
1F
100
AcDbEntity
  8
0
  6
Continuous
 62
     7
370
    25
100
AcDbLine
 10
162.1765957447
 20
803.5742223097
 30
0.0
 11
162.1765957447
 21
973.5742223097
 31
0.0
  0
LINE
  5
AB
330
1F
100
AcDbEntity
  8
0
  6
Continuous
 62
     7
370
    25
100
AcDbLine
 10
162.1765957447
 20
383.5742223097
 30
0.0
 11
162.1765957447
 21
553.5742223097
 31
0.0
  0
LINE
  5
AC
330
1F
100
AcDbEntity
  8
0
  6
Continuous
 62
     7
370
    25
100
AcDbLine
 10
-87.8234042553
 20
973.5742223097
 30
0.0
 11
-87.8234042553
 21
383.5742223097
 31
0.0
  0
LINE
  5
AD
330
1F
100
AcDbEntity
  8
0
  6
Continuous
 62
     7
370
    25
100
AcDbLine
 10
162.1765957447
 20
553.5742223097
 30
0.0
 11
329.1765957447
 21
553.5742223097
 31
0.0
  0
LINE
  5
AE
330
1F
100
AcDbEntity
  8
0
  6
Continuous
 62
     7
370
    25
100
AcDbLine
 10
329.1765957447
 20
803.5742223097
 30
0.0
 11
162.1765957447
 21
803.5742223097
 31
0.0
  0
LINE
  5
AF
330
1F
100
AcDbEntity
  8
0
  6
Continuous
 62
     7
370
    25
100
AcDbLine
 10
162.1765957447
 20
803.5742223097
 30
0.0
 11
37.1765957447
 21
678.5742223097
 31
0.0
  0
LINE
  5
B0
330
1F
100
AcDbEntity
  8
0
  6
Continuous
 62
     7
370
    25
100
AcDbLine
 10
37.1765957447
 20
678.5742223097
 30
0.0
 11
162.1765957447
 21
553.5742223097
 31
0.0
  0
LINE
  5
B1
330
1F
100
AcDbEntity
  8
0
  6
Continuous
 62
     7
370
    25
100
AcDbLine
 10
-87.8234042553
 20
973.5742223097
 30
0.0
 11
162.1765957447
 21
973.5742223097
 31
0.0
  0
LINE
  5
B2
330
1F
100
AcDbEntity
  8
0
  6
Continuous
 62
     7
370
    25
100
AcDbLine
 10
-87.8234042553
 20
383.5742223097
 30
0.0
 11
162.1765957447
 21
383.5742223097
 31
0.0
  0
LINE
  5
B3
330
1F
100
AcDbEntity
  8
0
  6
Continuous
 62
     7
370
    25
100
AcDbLine
 10
329.1765957447
 20
803.5742223097
 30
0.0
 11
329.1765957447
 21
553.5742223097
 31
0.0
  0
LINE
  5
B4
330
1F
100
AcDbEntity
  8
0
  6
Continuous
 62
     7
370
    25
100
AcDbLine
 10
740.618075884
 20
-12.0914893617
 30
0.0
 11
1035.618075884
 21
-12.0914893617
 31
0.0
  0
LINE
  5
B5
330
1F
100
AcDbEntity
  8
0
  6
Continuous
 62
     7
370
    25
100
AcDbLine
 10
445.618075884
 20
-12.0914893617
 30
0.0
 11
740.618075884
 21
-12.0914893617
 31
0.0
  0
LINE
  5
B6
330
1F
100
AcDbEntity
  8
0
  6
Continuous
 62
     7
370
    25
100
AcDbLine
 10
740.618075884
 20
237.9085106383
 30
0.0
 11
445.618075884
 21
237.9085106383
 31
0.0
  0
LINE
  5
B7
330
1F
100
AcDbEntity
  8
0
  6
Continuous
 62
     7
370
    25
100
AcDbLine
 10
1035.618075884
 20
237.9085106383
 30
0.0
 11
740.618075884
 21
237.9085106383
 31
0.0
  0
LINE
  5
B8
330
1F
100
AcDbEntity
  8
0
  6
Continuous
 62
     7
370
    25
100
AcDbLine
 10
1035.618075884
 20
237.9085106383
 30
0.0
 11
1035.618075884
 21
-12.0914893617
 31
0.0
  0
LINE
  5
B9
330
1F
100
AcDbEntity
  8
0
  6
Continuous
 62
     7
370
    25
100
AcDbLine
 10
445.618075884
 20
237.9085106383
 30
0.0
 11
445.618075884
 21
-12.0914893617
 31
0.0
  0
LINE
  5
BA
330
1F
100
AcDbEntity
  8
0
  6
Continuous
 62
     7
370
    25
100
AcDbLine
 10
-87.8234042553
 20
-152.6100086179
 30
0.0
 11
-87.8234042553
 21
-742.6100086179
 31
0.0
  0
LINE
  5
BB
330
1F
100
AcDbEntity
  8
0
  6
Continuous
 62
     7
370
    25
100
AcDbLine
 10
162.1765957447
 20
-322.6100086179
 30
0.0
 11
162.1765957447
 21
-152.6100086179
 31
0.0
  0
LINE
  5
BC
330
1F
100
AcDbEntity
  8
0
  6
Continuous
 62
     7
370
    25
100
AcDbLine
 10
162.1765957447
 20
-742.6100086179
 30
0.0
 11
162.1765957447
 21
-572.6100086179
 31
0.0
  0
LINE
  5
BD
330
1F
100
AcDbEntity
  8
0
  6
Continuous
 62
     7
370
    25
100
AcDbLine
 10
162.1765957447
 20
-572.6100086179
 30
0.0
 11
329.1765957447
 21
-572.6100086179
 31
0.0
  0
LINE
  5
BE
330
1F
100
AcDbEntity
  8
0
  6
Continuous
 62
     7
370
    25
100
AcDbLine
 10
329.1765957447
 20
-322.6100086179
 30
0.0
 11
162.1765957447
 21
-322.6100086179
 31
0.0
  0
LINE
  5
BF
330
1F
100
AcDbEntity
  8
0
  6
Continuous
 62
     7
370
    25
100
AcDbLine
 10
37.1765957447
 20
-447.6100086179
 30
0.0
 11
162.1765957447
 21
-572.6100086179
 31
0.0
  0
LINE
  5
C0
330
1F
100
AcDbEntity
  8
0
  6
Continuous
 62
     7
370
    25
100
AcDbLine
 10
162.1765957447
 20
-322.6100086179
 30
0.0
 11
37.1765957447
 21
-447.6100086179
 31
0.0
  0
LINE
  5
C1
330
1F
100
AcDbEntity
  8
0
  6
Continuous
 62
     7
370
    25
100
AcDbLine
 10
162.1765957447
 20
-742.6100086179
 30
0.0
 11
-87.8234042553
 21
-742.6100086179
 31
0.0
  0
LINE
  5
C2
330
1F
100
AcDbEntity
  8
0
  6
Continuous
 62
     7
370
    25
100
AcDbLine
 10
162.1765957447
 20
-152.6100086179
 30
0.0
 11
-87.8234042553
 21
-152.6100086179
 31
0.0
  0
LINE
  5
C3
330
1F
100
AcDbEntity
  8
0
  6
Continuous
 62
     7
370
    25
100
AcDbLine
 10
329.1765957447
 20
-322.6100086179
 30
0.0
 11
329.1765957447
 21
-572.6100086179
 31
0.0
  0
LINE
  5
C4
330
1F
100
AcDbEntity
  8
0
  6
Continuous
 62
     7
370
    25
100
AcDbLine
 10
771.8470050454
 20
-289.6811753308
 30
0.0
 11
625.7454253851
 21
-205.3385286767
 31
0.0
  0
LINE
  5
C5
330
1F
100
AcDbEntity
  8
0
  6
Continuous
 62
     7
370
    25
100
AcDbLine
 10
1042.9384262851
 20
-446.1789216644
 30
0.0
 11
1021.8673235376
 21
-434.0148329681
 31
0.0
  0
LINE
  5
C6
330
1F
100
AcDbEntity
  8
0
  6
Continuous
 62
     7
370
    25
100
AcDbLine
 10
500.7555838056
 20
-421.8507442718
 30
0.0
 11
917.9485847056
 21
-662.6911372595
 31
0.0
  0
LINE
  5
C7
330
1F
100
AcDbEntity
  8
0
  6
Continuous
 62
     7
370
    25
100
AcDbLine
 10
896.8368466249
 20
-506.193390926
 30
0.0
 11
1040.8171059416
 21
-423.0753564396
 31
0.0
  0
LINE
  5
C8
330
1F
100
AcDbEntity
  8
0
  6
Continuous
 62
     7
370
    25
100
AcDbLine
 10
915.8272643621
 20
-206.5631408444
 30
0.0
 11
771.8470050454
 21
-289.6811753308
 31
0.0
  0
LINE
  5
C9
330
1F
100
AcDbEntity
  8
0
  6
Continuous
 62
     7
370
    25
100
AcDbLine
 10
771.8470050454
 20
-289.6811753308
 30
0.0
 11
771.8470050454
 21
-536.0824344538
 31
0.0
  0
ELLIPSE
  5
CA
330
1F
100
AcDbEntity
  8
0
  6
Continuous
 62
     7
370
    25
100
AcDbEllipse
 10
771.8470050454
 20
-434.0148329681
 30
0.0
 11
176.7766952966367
 21
2.842170943040401E-13
 31
0.0
210
0.0
220
0.0
230
1.0
 40
0.5773815452
 41
4.712388980384697
 42
5.497705879720051
  0
LWPOLYLINE
  5
CB
330
1F
100
AcDbEntity
  8
0
  6
Continuous
 62
     7
370
    25
100
AcDbPolyline
 90
      119
 70
   128
 43
0.0
 10
651.6388522436
 20
-262.5691294853
 10
651.5135790564
 20
-257.209188425
 10
651.1381145951
 20
-252.0090780432
 10
650.5135231546
 20
-246.9835386179
 10
649.6415752072
 20
-242.1468155865
 10
648.524742384
 20
-237.5126191659
 10
647.1661904691
 20
-233.0940854895
 10
645.5697704254
 20
-228.9037393709
 10
643.7400074791
 20
-224.9534588015
 10
641.6820882919
 20
-221.2544412808
 10
639.4018462594
 20
-217.8171720758
 10
636.9057449754
 20
-214.6513944996
 10
634.2008599101
 20
-211.7660822925
 10
631.2948583542
 20
-209.1694141856
 10
628.1959776848
 20
-206.8687507167
 10
624.9130020158
 20
-204.8706133664
 10
621.4552372985
 20
-203.180666072
 10
617.8324849426
 20
-201.8036991728
 10
614.0550140332
 20
-200.7436158312
 10
610.1335322222
 20
-200.0034209684
 10
606.0791553756
 20
-199.5852127472
 10
601.9033760652
 20
-199.4901766243
 10
597.6180309911
 20
-199.7185819899
 10
593.2352674296
 20
-200.2697814041
 10
588.7675088001
 20
-201.1422124325
 10
584.2274194498
 20
-202.3334020743
 10
579.6278687553
 20
-203.8399737731
 10
574.9818946427
 20
-205.6576569879
 10
570.3026666305
 20
-207.7812992979
 10
565.6034484988
 20
-210.2048810085
 10
560.8975606919
 20
-212.9215322138
 10
556.1983425602
 20
-215.923552271
 10
551.519114548
 20
-219.2024316279
 10
546.8731404354
 20
-222.7488759449
 10
542.2735897409
 20
-226.5528324401
 10
537.7335003906
 20
-230.6035183857
 10
533.2657417611
 20
-234.8894516722
 10
528.8829781995
 20
-239.398483356
 10
524.5976331255
 20
-244.117832097
 10
520.4218538151
 20
-249.0341203885
 10
516.3674769685
 20
-254.133412477
 10
512.4459951574
 20
-259.4012538652
 10
508.6685242481
 20
-264.8227122844
 10
505.0457718922
 20
-270.3824200215
 10
501.5880071748
 20
-276.0646174811
 10
498.3050315058
 20
-281.853197857
 10
495.2061508364
 20
-287.7317527892
 10
492.3001492805
 20
-293.6836188752
 10
489.5952642153
 20
-299.6919249038
 10
487.0991629313
 20
-305.7396396788
 10
484.8189208988
 20
-311.8096202957
 10
482.7610017116
 20
-317.8846607349
 10
480.9312387652
 20
-323.9475406342
 10
479.3348187215
 20
-329.9810741018
 10
477.9762668066
 20
-335.9681584317
 10
476.8594339835
 20
-341.8918225828
 10
475.987486036
 20
-347.7352752854
 10
475.3628945955
 20
-353.4819526381
 10
474.9874301343
 20
-359.1155650595
 10
474.862156947
 20
-364.6201434632
 10
474.9874301343
 20
-369.9800845235
 10
475.3628945955
 20
-375.1801949053
 10
475.987486036
 20
-380.2057343306
 10
476.8594339835
 20
-385.042457362
 10
477.9762668066
 20
-389.6766537826
 10
479.3348187215
 20
-394.095187459
 10
480.9312387652
 20
-398.2855335776
 10
482.7610017116
 20
-402.235814147
 10
484.8189208988
 20
-405.9348316677
 10
487.0991629313
 20
-409.3721008727
 10
489.5952642153
 20
-412.5378784489
 10
492.3001492805
 20
-415.423190656
 10
495.2061508364
 20
-418.0198587629
 10
498.3050315058
 20
-420.3205222318
 10
501.5880071748
 20
-422.3186595821
 10
505.0457718922
 20
-424.0086068765
 10
508.6685242481
 20
-425.3855737757
 10
512.4459951574
 20
-426.4456571173
 10
516.3674769685
 20
-427.1858519802
 10
520.4218538151
 20
-427.6040602013
 10
524.5976331255
 20
-427.6990963242
 10
528.8829781995
 20
-427.4706909586
 10
533.2657417611
 20
-426.9194915444
 10
537.7335003906
 20
-426.0470605161
 10
542.2735897409
 20
-424.8558708742
 10
546.8731404354
 20
-423.3492991754
 10
551.519114548
 20
-421.5316159606
 10
556.1983425602
 20
-419.4079736506
 10
560.8975606919
 20
-416.98439194
 10
565.6034484988
 20
-414.2677407347
 10
570.3026666305
 20
-411.2657206775
 10
574.9818946427
 20
-407.9868413206
 10
579.6278687553
 20
-404.4403970036
 10
584.2274194498
 20
-400.6364405084
 10
588.7675088001
 20
-396.5857545628
 10
593.2352674296
 20
-392.2998212763
 10
597.6180309911
 20
-387.7907895925
 10
601.9033760652
 20
-383.0714408515
 10
606.0791553756
 20
-378.15515256
 10
610.1335322222
 20
-373.0558604715
 10
614.0550140332
 20
-367.7880190833
 10
617.8324849426
 20
-362.3665606641
 10
621.4552372985
 20
-356.806852927
 10
624.9130020158
 20
-351.1246554674
 10
628.1959776848
 20
-345.3360750915
 10
631.2948583542
 20
-339.4575201593
 10
634.2008599101
 20
-333.5056540733
 10
636.9057449754
 20
-327.4973480447
 10
639.4018462594
 20
-321.4496332697
 10
641.6820882919
 20
-315.3796526528
 10
643.7400074791
 20
-309.3046122136
 10
645.5697704254
 20
-303.2417323143
 10
647.1661904691
 20
-297.2081988467
 10
648.524742384
 20
-291.2211145168
 10
649.6415752072
 20
-285.2974503657
 10
650.5135231546
 20
-279.4539976631
 10
651.1381145951
 20
-273.7073203104
 10
651.5135790564
 20
-268.073707889
 10
651.6388522436
 20
-262.5691294853
  0
LWPOLYLINE
  5
CC
330
1F
100
AcDbEntity
  8
0
  6
Continuous
 62
     7
370
    25
100
AcDbPolyline
 90
       16
 70
   128
 43
0.0
 10
1068.8318531437
 20
-503.409522473
 10
1068.7065799565
 20
-498.0495814127
 10
1068.3311154952
 20
-492.8494710309
 10
1067.7065240547
 20
-487.8239316056
 10
1066.8345761073
 20
-482.9872085742
 10
1065.7177432841
 20
-478.3530121536
 10
1064.3591913692
 20
-473.9344784772
 10
1062.7627713255
 20
-469.7441323586
 10
1060.9330083791
 20
-465.7938517892
 10
1058.8750891919
 20
-462.0948342685
 10
1056.5948471595
 20
-458.6575650635
 10
1054.0987458754
 20
-455.4917874873
 10
1051.3938608102
 20
-452.6064752802
 10
1048.4878592543
 20
-450.0098071733
 10
1045.3889785849
 20
-447.7091437044
 10
1042.9384262851
 20
-446.1789216644
  0
LWPOLYLINE
  5
CD
330
1F
100
AcDbEntity
  8
0
  6
Continuous
 62
     7
370
    25
100
AcDbPolyline
 90
       46
 70
   128
 43
0.0
 10
917.9485847056
 20
-662.6911372595
 10
918.7810080749
 20
-663.1590525698
 10
922.2387727922
 20
-664.8489998642
 10
925.8615251481
 20
-666.2259667634
 10
929.6389960575
 20
-667.286050105
 10
933.5604778686
 20
-668.0262449679
 10
937.6148547151
 20
-668.444453189
 10
941.7906340255
 20
-668.5394893119
 10
946.0759790996
 20
-668.3110839463
 10
950.4587426611
 20
-667.7598845321
 10
954.9265012907
 20
-666.8874535038
 10
959.466590641
 20
-665.6962638619
 10
964.0661413355
 20
-664.1896921631
 10
968.712115448
 20
-662.3720089483
 10
973.3913434603
 20
-660.2483666383
 10
978.090561592
 20
-657.8247849277
 10
982.7964493988
 20
-655.1081337224
 10
987.4956675305
 20
-652.1061136652
 10
992.1748955428
 20
-648.8272343083
 10
996.8208696553
 20
-645.2807899913
 10
1001.4204203498
 20
-641.4768334961
 10
1005.9605097001
 20
-637.4261475505
 10
1010.4282683297
 20
-633.140214264
 10
1014.8110318912
 20
-628.6311825802
 10
1019.0963769653
 20
-623.9118338392
 10
1023.2721562757
 20
-618.9955455477
 10
1027.3265331222
 20
-613.8962534592
 10
1031.2480149333
 20
-608.628412071
 10
1035.0254858427
 20
-603.2069536518
 10
1038.6482381986
 20
-597.6472459147
 10
1042.1060029159
 20
-591.9650484551
 10
1045.3889785849
 20
-586.1764680792
 10
1048.4878592543
 20
-580.297913147
 10
1051.3938608102
 20
-574.346047061
 10
1054.0987458754
 20
-568.3377410324
 10
1056.5948471595
 20
-562.2900262574
 10
1058.8750891919
 20
-556.2200456405
 10
1060.9330083791
 20
-550.1450052013
 10
1062.7627713255
 20
-544.082125302
 10
1064.3591913692
 20
-538.0485918344
 10
1065.7177432841
 20
-532.0615075045
 10
1066.8345761073
 20
-526.1378433534
 10
1067.7065240547
 20
-520.2943906508
 10
1068.3311154952
 20
-514.5477132981
 10
1068.7065799565
 20
-508.9141008767
 10
1068.8318531437
 20
-503.409522473
  0
LWPOLYLINE
  5
CE
330
1F
100
AcDbEntity
  8
0
  6
Continuous
 62
     7
370
    25
100
AcDbPolyline
 90
      108
 70
   128
 43
0.0
 10
635.5875283107
 20
-271.8353615545
 10
635.4628479576
 20
-267.0050366541
 10
635.0892366973
 20
-262.3353157559
 10
634.4679824453
 20
-257.8422963551
 10
633.6012267936
 20
-253.5414668205
 10
632.4919576285
 20
-249.4476530023
 10
631.1439988306
 20
-245.574967125
 10
629.5619970932
 20
-241.936759139
 10
627.7514059039
 20
-238.5455707009
 10
625.7184667458
 20
-235.4130919398
 10
623.4701875811
 20
-232.5501211589
 10
621.014318694
 20
-229.9665276116
 10
618.3593259733
 20
-227.6712174801
 10
615.5143617289
 20
-225.6721031738
 10
612.4892331418
 20
-223.9760760541
 10
609.2943684571
 20
-222.5889826776
 10
605.9407810352
 20
-221.5156046426
 10
602.4400313865
 20
-220.7596421055
 10
598.8041873205
 20
-220.3237010259
 10
595.0457823448
 20
-220.2092841829
 10
591.1777724599
 20
-220.4167859952
 10
587.2134914972
 20
-220.9454911608
 10
583.1666051544
 20
-221.7935771237
 10
579.0510638872
 20
-222.9581203559
 10
574.8810548188
 20
-224.4351064355
 10
570.6709528345
 20
-226.2194438855
 10
566.4352710278
 20
-228.3049817252
 10
562.1886106714
 20
-230.6845306735
 10
557.9456108834
 20
-233.3498879323
 10
553.720898163
 20
-236.291865463
 10
549.5290359701
 20
-239.5003216595
 10
545.3844745221
 20
-242.9641963086
 10
541.301500981
 20
-246.6715487169
 10
537.2941902023
 20
-250.6095988726
 10
533.3763562164
 20
-254.764771501
 10
529.5615046088
 20
-259.1227428612
 10
525.8627859632
 20
-263.6684901232
 10
522.292950529
 20
-268.3863431544
 10
518.8643042686
 20
-273.2600385381
 10
515.5886664357
 20
-278.2727756367
 10
512.4773288327
 20
-283.4072745069
 10
509.5410168848
 20
-288.6458354675
 10
506.7898526676
 20
-293.9704001136
 10
504.233320014
 20
-299.3626135678
 10
501.8802318218
 20
-304.8038877532
 10
499.7386996734
 20
-310.2754654707
 10
497.8161058737
 20
-315.7584850581
 10
496.1190780019
 20
-321.2340454113
 10
494.6534660647
 20
-326.6832711392
 10
493.4243223299
 20
-332.087377632
 10
492.4358839107
 20
-337.4277358151
 10
491.691558159
 20
-342.6859363674
 10
491.19391092
 20
-347.8438531824
 10
490.9446576867
 20
-352.8837058523
 10
490.9446576867
 20
-357.7881209608
 10
491.19391092
 20
-362.5401919731
 10
491.691558159
 20
-367.123537516
 10
492.4358839107
 20
-371.5223578479
 10
493.4243223299
 20
-375.7214893238
 10
494.6534660647
 20
-379.7064566677
 10
496.1190780019
 20
-383.4635228715
 10
497.8161058737
 20
-386.9797365497
 10
499.7386996734
 20
-390.2429765855
 10
501.8802318218
 20
-393.2419939143
 10
504.233320014
 20
-395.9664503021
 10
506.7898526676
 20
-398.4069539834
 10
509.5410168848
 20
-400.5550920364
 10
512.4773288327
 20
-402.4034593842
 10
515.5886664357
 20
-403.9456843217
 10
518.8643042686
 20
-405.17645048
 10
522.292950529
 20
-406.0915151532
 10
525.8627859632
 20
-406.6877239238
 10
529.5615046088
 20
-406.9630215366
 10
533.3763562164
 20
-406.9164589838
 10
537.2941902023
 20
-406.5481967762
 10
541.301500981
 20
-405.8595043898
 10
545.3844745221
 20
-404.8527558899
 10
549.5290359701
 20
-403.5314217472
 10
553.720898163
 20
-401.9000568743
 10
557.9456108834
 20
-399.9642849238
 10
562.1886106714
 20
-397.7307789026
 10
566.4352710278
 20
-395.2072381687
 10
570.6709528345
 20
-392.4023618897
 10
574.8810548188
 20
-389.3258190554
 10
579.0510638872
 20
-385.9882151461
 10
583.1666051544
 20
-382.4010555739
 10
587.2134914972
 20
-378.5767060211
 10
591.1777724599
 20
-374.5283498127
 10
595.0457823448
 20
-370.2699424714
 10
598.8041873205
 20
-365.8161636093
 10
602.4400313865
 20
-361.1823663249
 10
605.9407810352
 20
-356.3845242774
 10
609.2943684571
 20
-351.4391766222
 10
612.4892331418
 20
-346.3633709972
 10
615.5143617289
 20
-341.1746047559
 10
618.3593259733
 20
-335.8907646504
 10
621.014318694
 20
-330.5300651722
 10
623.4701875811
 20
-325.1109857628
 10
625.7184667458
 20
-319.6522071118
 10
627.7514059039
 20
-314.1725467598
 10
629.5619970932
 20
-308.6908942314
 10
631.1439988306
 20
-303.2261459184
 10
632.4919576285
 20
-297.7971399402
 10
633.6012267936
 20
-292.4225912053
 10
634.4679824453
 20
-287.1210268964
 10
635.0892366973
 20
-281.910722604
 10
635.4628479576
 20
-276.8096393265
 10
635.5875283107
 20
-271.8353615545
  0
LWPOLYLINE
  5
CF
330
1F
100
AcDbEntity
  8
0
  6
Continuous
 62
     7
370
    25
100
AcDbPolyline
 90
      119
 70
   128
 43
0.0
 10
1066.7105328002
 20
-365.8447556309
 10
1066.5852596129
 20
-360.3401772273
 10
1066.2097951516
 20
-354.7065648058
 10
1065.5852037111
 20
-348.9598874532
 10
1064.7132557637
 20
-343.1164347505
 10
1063.5964229405
 20
-337.1927705994
 10
1062.2378710256
 20
-331.2056862696
 10
1060.6414509819
 20
-325.1721528019
 10
1058.8116880356
 20
-319.1092729026
 10
1056.7537688484
 20
-313.0342324634
 10
1054.4735268159
 20
-306.9642518466
 10
1051.9774255319
 20
-300.9165370715
 10
1049.2725404666
 20
-294.9082310429
 10
1046.3665389107
 20
-288.956364957
 10
1043.2676582413
 20
-283.0778100247
 10
1039.9846825723
 20
-277.2892296488
 10
1036.526917855
 20
-271.6070321893
 10
1032.9041654991
 20
-266.0473244521
 10
1029.1266945897
 20
-260.625866033
 10
1025.2052127787
 20
-255.3580246448
 10
1021.1508359321
 20
-250.2587325562
 10
1016.9750566217
 20
-245.3424442648
 10
1012.6897115476
 20
-240.6230955238
 10
1008.3069479861
 20
-236.1140638399
 10
1003.8391893566
 20
-231.8281305534
 10
999.2991000063
 20
-227.7774446079
 10
994.6995493118
 20
-223.9734881126
 10
990.0535751992
 20
-220.4270437956
 10
985.374347187
 20
-217.1481644387
 10
980.6751290553
 20
-214.1461443816
 10
975.9692412484
 20
-211.4294931762
 10
971.2700231167
 20
-209.0059114657
 10
966.5907951045
 20
-206.8822691556
 10
961.9448209919
 20
-205.0645859409
 10
957.3452702974
 20
-203.558014242
 10
952.8051809471
 20
-202.3668246002
 10
948.3374223176
 20
-201.4943935719
 10
943.954658756
 20
-200.9431941576
 10
939.669313682
 20
-200.714788792
 10
935.4935343716
 20
-200.8098249149
 10
931.439157525
 20
-201.2280331361
 10
927.5176757139
 20
-201.9682279989
 10
923.7402048046
 20
-203.0283113406
 10
920.1174524487
 20
-204.4052782397
 10
916.6596877313
 20
-206.0952255341
 10
913.3767120623
 20
-208.0933628844
 10
910.2778313929
 20
-210.3940263533
 10
907.371829837
 20
-212.9906944603
 10
904.6669447718
 20
-215.8760066673
 10
902.1708434878
 20
-219.0417842436
 10
899.8906014553
 20
-222.4790534486
 10
897.8326822681
 20
-226.1780709693
 10
896.0029193217
 20
-230.1283515386
 10
894.406499278
 20
-234.3186976572
 10
893.0479473631
 20
-238.7372313337
 10
891.93111454
 20
-243.3714277542
 10
891.0591665925
 20
-248.2081507856
 10
890.434575152
 20
-253.233690211
 10
890.0591106908
 20
-258.4338005927
 10
889.9338375035
 20
-263.7937416531
 10
890.0591106908
 20
-269.2983200567
 10
890.434575152
 20
-274.9319324781
 10
891.0591665925
 20
-280.6786098308
 10
891.93111454
 20
-286.5220625335
 10
893.0479473631
 20
-292.4457266846
 10
894.406499278
 20
-298.4328110144
 10
896.0029193217
 20
-304.4663444821
 10
897.8326822681
 20
-310.5292243814
 10
899.8906014553
 20
-316.6042648205
 10
902.1708434878
 20
-322.6742454374
 10
904.6669447718
 20
-328.7219602124
 10
907.371829837
 20
-334.7302662411
 10
910.2778313929
 20
-340.682132327
 10
913.3767120623
 20
-346.5606872593
 10
916.6596877313
 20
-352.3492676351
 10
920.1174524487
 20
-358.0314650947
 10
923.7402048046
 20
-363.5911728319
 10
927.5176757139
 20
-369.012631251
 10
931.439157525
 20
-374.2804726392
 10
935.4935343716
 20
-379.3797647278
 10
939.669313682
 20
-384.2960530192
 10
943.954658756
 20
-389.0154017602
 10
948.3374223176
 20
-393.5244334441
 10
952.8051809471
 20
-397.8103667305
 10
957.3452702974
 20
-401.8610526761
 10
961.9448209919
 20
-405.6650091714
 10
966.5907951045
 20
-409.2114534883
 10
971.2700231167
 20
-412.4903328453
 10
975.9692412484
 20
-415.4923529024
 10
980.6751290553
 20
-418.2090041078
 10
985.374347187
 20
-420.6325858183
 10
990.0535751992
 20
-422.7562281284
 10
994.6995493118
 20
-424.5739113431
 10
999.2991000063
 20
-426.080483042
 10
1003.8391893566
 20
-427.2716726838
 10
1008.3069479861
 20
-428.1441037121
 10
1012.6897115476
 20
-428.6953031264
 10
1016.9750566217
 20
-428.923708492
 10
1021.1508359321
 20
-428.8286723691
 10
1025.2052127787
 20
-428.4104641479
 10
1029.1266945897
 20
-427.6702692851
 10
1032.9041654991
 20
-426.6101859434
 10
1036.526917855
 20
-425.2332190442
 10
1039.9846825723
 20
-423.5432717499
 10
1043.2676582413
 20
-421.5451343995
 10
1046.3665389107
 20
-419.2444709306
 10
1049.2725404666
 20
-416.6478028237
 10
1051.9774255319
 20
-413.7624906167
 10
1054.4735268159
 20
-410.5967130404
 10
1056.7537688484
 20
-407.1594438354
 10
1058.8116880356
 20
-403.4604263147
 10
1060.6414509819
 20
-399.5101457453
 10
1062.2378710256
 20
-395.3197996268
 10
1063.5964229405
 20
-390.9012659503
 10
1064.7132557637
 20
-386.2670695298
 10
1065.5852037111
 20
-381.4303464984
 10
1066.2097951516
 20
-376.404807073
 10
1066.5852596129
 20
-371.2046966912
 10
1066.7105328002
 20
-365.8447556309
  0
LWPOLYLINE
  5
D0
330
1F
100
AcDbEntity
  8
0
  6
Continuous
 62
     7
370
    25
100
AcDbPolyline
 90
      108
 70
   128
 43
0.0
 10
1050.6592088672
 20
-356.5785235617
 10
1050.5345285141
 20
-351.6042457898
 10
1050.1609172538
 20
-346.5031625122
 10
1049.5396630018
 20
-341.2928582198
 10
1048.6729073501
 20
-335.991293911
 10
1047.563638185
 20
-330.616745176
 10
1046.2156793871
 20
-325.1877391979
 10
1044.6336776497
 20
-319.7229908848
 10
1042.8230864604
 20
-314.2413383564
 10
1040.7901473023
 20
-308.7616780045
 10
1038.5418681376
 20
-303.3028993534
 10
1036.0859992505
 20
-297.8838199441
 10
1033.4310065298
 20
-292.5231204658
 10
1030.5860422854
 20
-287.2392803603
 10
1027.5609136983
 20
-282.050514119
 10
1024.3660490136
 20
-276.974708494
 10
1021.0124615917
 20
-272.0293608388
 10
1017.511711943
 20
-267.2315187913
 10
1013.875867877
 20
-262.5977215069
 10
1010.1174629013
 20
-258.1439426449
 10
1006.2494530164
 20
-253.8855353035
 10
1002.2851720537
 20
-249.8371790952
 10
998.2382857109
 20
-246.0128295423
 10
994.1227444437
 20
-242.4256699702
 10
989.9527353754
 20
-239.0880660609
 10
985.742633391
 20
-236.0115232265
 10
981.5069515843
 20
-233.2066469475
 10
977.2602912279
 20
-230.6831062136
 10
973.0172914399
 20
-228.4496001924
 10
968.7925787195
 20
-226.5138282419
 10
964.6007165266
 20
-224.882463369
 10
960.4561550786
 20
-223.5611292263
 10
956.3731815375
 20
-222.5543807265
 10
952.3658707588
 20
-221.8656883401
 10
948.4480367729
 20
-221.4974261324
 10
944.6331851653
 20
-221.4508635796
 10
940.9344665197
 20
-221.7261611925
 10
937.3646310855
 20
-222.3223699631
 10
933.9359848251
 20
-223.2374346362
 10
930.6603469922
 20
-224.4682007945
 10
927.5490093892
 20
-226.010425732
 10
924.6126974413
 20
-227.8587930798
 10
921.8615332241
 20
-230.0069311328
 10
919.3050005705
 20
-232.4474348141
 10
916.9519123783
 20
-235.171891202
 10
914.8103802299
 20
-238.1709085308
 10
912.8877864302
 20
-241.4341485665
 10
911.1907585584
 20
-244.9503622448
 10
909.7251466212
 20
-248.7074284486
 10
908.4960028864
 20
-252.6923957924
 10
907.5075644672
 20
-256.8915272683
 10
906.7632387155
 20
-261.2903476002
 10
906.2655914765
 20
-265.8736931431
 10
906.0163382432
 20
-270.6257641554
 10
906.0163382432
 20
-275.530179264
 10
906.2655914765
 20
-280.5700319339
 10
906.7632387155
 20
-285.7279487488
 10
907.5075644672
 20
-290.9861493012
 10
908.4960028864
 20
-296.3265074842
 10
909.7251466212
 20
-301.730613977
 10
911.1907585584
 20
-307.1798397049
 10
912.8877864302
 20
-312.6554000581
 10
914.8103802299
 20
-318.1384196456
 10
916.9519123783
 20
-323.609997363
 10
919.3050005705
 20
-329.0512715485
 10
921.8615332241
 20
-334.4434850027
 10
924.6126974413
 20
-339.7680496488
 10
927.5490093892
 20
-345.0066106093
 10
930.6603469922
 20
-350.1411094795
 10
933.9359848251
 20
-355.1538465781
 10
937.3646310855
 20
-360.0275419618
 10
940.9344665197
 20
-364.7453949931
 10
944.6331851653
 20
-369.291142255
 10
948.4480367729
 20
-373.6491136153
 10
952.3658707588
 20
-377.8042862436
 10
956.3731815375
 20
-381.7423363993
 10
960.4561550786
 20
-385.4496888076
 10
964.6007165266
 20
-388.9135634567
 10
968.7925787195
 20
-392.1220196532
 10
973.0172914399
 20
-395.0639971839
 10
977.2602912279
 20
-397.7293544427
 10
981.5069515843
 20
-400.108903391
 10
985.742633391
 20
-402.1944412307
 10
989.9527353754
 20
-403.9787786808
 10
994.1227444437
 20
-405.4557647604
 10
998.2382857109
 20
-406.6203079925
 10
1002.2851720537
 20
-407.4683939554
 10
1006.2494530164
 20
-407.9970991211
 10
1010.1174629013
 20
-408.2046009333
 10
1013.875867877
 20
-408.0901840903
 10
1017.511711943
 20
-407.6542430107
 10
1021.0124615917
 20
-406.8982804737
 10
1024.3660490136
 20
-405.8249024387
 10
1027.5609136983
 20
-404.4378090622
 10
1030.5860422854
 20
-402.7417819424
 10
1033.4310065298
 20
-400.7426676362
 10
1036.0859992505
 20
-398.4473575047
 10
1038.5418681376
 20
-395.8637639574
 10
1040.7901473023
 20
-393.0007931765
 10
1042.8230864604
 20
-389.8683144154
 10
1044.6336776497
 20
-386.4771259773
 10
1046.2156793871
 20
-382.8389179912
 10
1047.563638185
 20
-378.9662321139
 10
1048.6729073501
 20
-374.8724182958
 10
1049.5396630018
 20
-370.5715887611
 10
1050.1609172538
 20
-366.0785693604
 10
1050.5345285141
 20
-361.4088484621
 10
1050.6592088672
 20
-356.5785235617
  0
ENDSEC
  0
SECTION
  2
OBJECTS
  0
DICTIONARY
  5
C
330
0
100
AcDbDictionary
281
     1
  3
ACAD_GROUP
350
D
  3
ACAD_LAYOUT
350
1A
  3
ACAD_MLINESTYLE
350
17
  3
ACAD_PLOTSETTINGS
350
19
  3
ACAD_PLOTSTYLENAME
350
E
  3
ACAD_SCALELIST
350
47
  3
DWGPROPS
350
D1
  0
DICTIONARY
  5
D
102
{ACAD_REACTORS
330
C
102
}
330
C
100
AcDbDictionary
281
     1
  0
DICTIONARY
  5
1A
102
{ACAD_REACTORS
330
C
102
}
330
C
100
AcDbDictionary
281
     1
  3
Layout1
350
1E
  3
Layout2
350
26
  3
Model
350
22
  0
DICTIONARY
  5
17
102
{ACAD_REACTORS
330
C
102
}
330
C
100
AcDbDictionary
281
     1
  3
Standard
350
18
  0
DICTIONARY
  5
19
102
{ACAD_REACTORS
330
C
102
}
330
C
100
AcDbDictionary
281
     1
  0
ACDBDICTIONARYWDFLT
  5
E
102
{ACAD_REACTORS
330
C
102
}
330
C
100
AcDbDictionary
281
     1
  3
Normal
350
F
100
AcDbDictionaryWithDefault
340
F
  0
DICTIONARY
  5
47
102
{ACAD_REACTORS
330
C
102
}
330
C
100
AcDbDictionary
281
     1
  3
A0
350
48
  3
A1
350
49
  3
A2
350
4A
  3
A3
350
4B
  3
A4
350
4C
  3
A5
350
4D
  3
A6
350
4E
  3
A7
350
4F
  3
A8
350
50
  3
A9
350
51
  3
B0
350
52
  3
B1
350
53
  3
B2
350
54
  3
B3
350
55
  3
B4
350
56
  3
B5
350
57
  3
B6
350
58
  3
B7
350
59
  3
B8
350
5A
  3
B9
350
5B
  3
C0
350
5C
  3
C1
350
5D
  3
C2
350
5E
  3
C3
350
5F
  3
C4
350
60
  3
C5
350
61
  3
C6
350
62
  3
C7
350
63
  3
C8
350
64
  3
C9
350
65
  3
D0
350
66
  3
D1
350
67
  3
D2
350
68
  0
XRECORD
  5
D1
102
{ACAD_REACTORS
330
C
102
}
330
C
100
AcDbXrecord
280
     1
  1
DWGPROPS COOKIE
  2

  3

  4

  6

  7

  8
b.kav
  9

300
=
301
=
302
=
303
=
304
=
305
=
306
=
307
=
308
=
309
=
 40
0.0
 41
2460608.405382002
 42
2460608.405382176
  1

 90
        0
  0
LAYOUT
  5
1E
102
{ACAD_REACTORS
330
1A
102
}
330
1A
100
AcDbPlotSettings
  1

  2
none_device
  4

  6

 40
0.0
 41
0.0
 42
0.0
 43
0.0
 44
0.0
 45
0.0
 46
0.0
 47
0.0
 48
0.0
 49
0.0
140
0.0
141
0.0
142
1.0
143
1.0
 70
   688
 72
     1
 73
     0
 74
     5
  7

 75
    16
147
1.0
148
0.0
149
0.0
100
AcDbLayout
  1
Layout1
 70
     1
 71
     1
 10
0.0
 20
0.0
 11
420.0
 21
297.0
 12
0.0
 22
0.0
 32
0.0
 14
1.0000000000E+20
 24
1.0000000000E+20
 34
1.0000000000E+20
 15
-1.0000000000E+20
 25
-1.0000000000E+20
 35
-1.0000000000E+20
146
0.0
 13
0.0
 23
0.0
 33
0.0
 16
1.0
 26
0.0
 36
0.0
 17
0.0
 27
1.0
 37
0.0
 76
     0
330
1B
  0
LAYOUT
  5
26
102
{ACAD_REACTORS
330
1A
102
}
330
1A
100
AcDbPlotSettings
  1

  2
none_device
  4

  6

 40
0.0
 41
0.0
 42
0.0
 43
0.0
 44
0.0
 45
0.0
 46
0.0
 47
0.0
 48
0.0
 49
0.0
140
0.0
141
0.0
142
1.0
143
1.0
 70
   688
 72
     1
 73
     0
 74
     5
  7

 75
    16
147
1.0
148
0.0
149
0.0
100
AcDbLayout
  1
Layout2
 70
     1
 71
     2
 10
0.0
 20
0.0
 11
0.0
 21
0.0
 12
0.0
 22
0.0
 32
0.0
 14
0.0
 24
0.0
 34
0.0
 15
0.0
 25
0.0
 35
0.0
146
0.0
 13
0.0
 23
0.0
 33
0.0
 16
1.0
 26
0.0
 36
0.0
 17
0.0
 27
1.0
 37
0.0
 76
     0
330
23
  0
LAYOUT
  5
22
102
{ACAD_REACTORS
330
1A
102
}
330
1A
100
AcDbPlotSettings
  1

  2
none_device
  4
Letter_(8.50_x_11.00_Inches)
  6

 40
6.35
 41
6.35
 42
6.35000508
 43
6.35000508
 44
215.9
 45
279.4
 46
0.0
 47
0.0
 48
0.0
 49
0.0
140
0.0
141
0.0
142
1.0
143
1.0
 70
  1712
 72
     1
 73
     0
 74
     0
  7

 75
     0
147
1.0
148
0.0
149
0.0
100
AcDbLayout
  1
Model
 70
     1
 71
     0
 10
0.0
 20
0.0
 11
279.4
 21
215.9
 12
0.0
 22
0.0
 32
0.0
 14
0.0
 24
0.0
 34
0.0
 15
279.4
 25
215.9
 35
0.0
146
0.0
 13
0.0
 23
0.0
 33
0.0
 16
1.0
 26
0.0
 36
0.0
 17
0.0
 27
1.0
 37
0.0
 76
     0
330
1F
331
29
  0
MLINESTYLE
  5
18
102
{ACAD_REACTORS
330
17
102
}
330
17
100
AcDbMlineStyle
  2
Standard
 70
     0
  3

 62
   256
 51
90.0
 52
90.0
 71
     2
 49
0.5
 62
   256
  6
BYLAYER
 49
-0.5
 62
   256
  6
BYLAYER
  0
ACDBPLACEHOLDER
  5
F
102
{ACAD_REACTORS
330
E
102
}
330
E
  0
SCALE
  5
48
102
{ACAD_REACTORS
330
47
102
}
330
47
100
AcDbScale
 70
     0
300
1:1
140
1.0
141
1.0
290
     1
  0
SCALE
  5
49
102
{ACAD_REACTORS
330
47
102
}
330
47
100
AcDbScale
 70
     0
300
1:2
140
1.0
141
2.0
290
     0
  0
SCALE
  5
4A
102
{ACAD_REACTORS
330
47
102
}
330
47
100
AcDbScale
 70
     0
300
1:4
140
1.0
141
4.0
290
     0
  0
SCALE
  5
4B
102
{ACAD_REACTORS
330
47
102
}
330
47
100
AcDbScale
 70
     0
300
1:5
140
1.0
141
5.0
290
     0
  0
SCALE
  5
4C
102
{ACAD_REACTORS
330
47
102
}
330
47
100
AcDbScale
 70
     0
300
1:8
140
1.0
141
8.0
290
     0
  0
SCALE
  5
4D
102
{ACAD_REACTORS
330
47
102
}
330
47
100
AcDbScale
 70
     0
300
1:10
140
1.0
141
10.0
290
     0
  0
SCALE
  5
4E
102
{ACAD_REACTORS
330
47
102
}
330
47
100
AcDbScale
 70
     0
300
1:16
140
1.0
141
16.0
290
     0
  0
SCALE
  5
4F
102
{ACAD_REACTORS
330
47
102
}
330
47
100
AcDbScale
 70
     0
300
1:20
140
1.0
141
20.0
290
     0
  0
SCALE
  5
50
102
{ACAD_REACTORS
330
47
102
}
330
47
100
AcDbScale
 70
     0
300
1:30
140
1.0
141
30.0
290
     0
  0
SCALE
  5
51
102
{ACAD_REACTORS
330
47
102
}
330
47
100
AcDbScale
 70
     0
300
1:40
140
1.0
141
40.0
290
     0
  0
SCALE
  5
52
102
{ACAD_REACTORS
330
47
102
}
330
47
100
AcDbScale
 70
     0
300
1:50
140
1.0
141
50.0
290
     0
  0
SCALE
  5
53
102
{ACAD_REACTORS
330
47
102
}
330
47
100
AcDbScale
 70
     0
300
1:100
140
1.0
141
100.0
290
     0
  0
SCALE
  5
54
102
{ACAD_REACTORS
330
47
102
}
330
47
100
AcDbScale
 70
     0
300
2:1
140
2.0
141
1.0
290
     0
  0
SCALE
  5
55
102
{ACAD_REACTORS
330
47
102
}
330
47
100
AcDbScale
 70
     0
300
4:1
140
4.0
141
1.0
290
     0
  0
SCALE
  5
56
102
{ACAD_REACTORS
330
47
102
}
330
47
100
AcDbScale
 70
     0
300
8:1
140
8.0
141
1.0
290
     0
  0
SCALE
  5
57
102
{ACAD_REACTORS
330
47
102
}
330
47
100
AcDbScale
 70
     0
300
10:1
140
10.0
141
1.0
290
     0
  0
SCALE
  5
58
102
{ACAD_REACTORS
330
47
102
}
330
47
100
AcDbScale
 70
     0
300
100:1
140
100.0
141
1.0
290
     0
  0
SCALE
  5
59
102
{ACAD_REACTORS
330
47
102
}
330
47
100
AcDbScale
 70
     0
300
1/128" = 1'-0"
140
0.0078125
141
12.0
290
     0
  0
SCALE
  5
5A
102
{ACAD_REACTORS
330
47
102
}
330
47
100
AcDbScale
 70
     0
300
1/64" = 1'-0"
140
0.015625
141
12.0
290
     0
  0
SCALE
  5
5B
102
{ACAD_REACTORS
330
47
102
}
330
47
100
AcDbScale
 70
     0
300
1/32" = 1'-0"
140
0.03125
141
12.0
290
     0
  0
SCALE
  5
5C
102
{ACAD_REACTORS
330
47
102
}
330
47
100
AcDbScale
 70
     0
300
1/16" = 1'-0"
140
0.0625
141
12.0
290
     0
  0
SCALE
  5
5D
102
{ACAD_REACTORS
330
47
102
}
330
47
100
AcDbScale
 70
     0
300
3/32" = 1'-0"
140
0.09375
141
12.0
290
     0
  0
SCALE
  5
5E
102
{ACAD_REACTORS
330
47
102
}
330
47
100
AcDbScale
 70
     0
300
1/8" = 1'-0"
140
0.125
141
12.0
290
     0
  0
SCALE
  5
5F
102
{ACAD_REACTORS
330
47
102
}
330
47
100
AcDbScale
 70
     0
300
3/16" = 1'-0"
140
0.1875
141
12.0
290
     0
  0
SCALE
  5
60
102
{ACAD_REACTORS
330
47
102
}
330
47
100
AcDbScale
 70
     0
300
1/4" = 1'-0"
140
0.25
141
12.0
290
     0
  0
SCALE
  5
61
102
{ACAD_REACTORS
330
47
102
}
330
47
100
AcDbScale
 70
     0
300
3/8" = 1'-0"
140
0.375
141
12.0
290
     0
  0
SCALE
  5
62
102
{ACAD_REACTORS
330
47
102
}
330
47
100
AcDbScale
 70
     0
300
1/2" = 1'-0"
140
0.5
141
12.0
290
     0
  0
SCALE
  5
63
102
{ACAD_REACTORS
330
47
102
}
330
47
100
AcDbScale
 70
     0
300
3/4" = 1'-0"
140
0.75
141
12.0
290
     0
  0
SCALE
  5
64
102
{ACAD_REACTORS
330
47
102
}
330
47
100
AcDbScale
 70
     0
300
1" = 1'-0"
140
1.0
141
12.0
290
     0
  0
SCALE
  5
65
102
{ACAD_REACTORS
330
47
102
}
330
47
100
AcDbScale
 70
     0
300
1-1/2" = 1'-0"
140
1.5
141
12.0
290
     0
  0
SCALE
  5
66
102
{ACAD_REACTORS
330
47
102
}
330
47
100
AcDbScale
 70
     0
300
3" = 1'-0"
140
3.0
141
12.0
290
     0
  0
SCALE
  5
67
102
{ACAD_REACTORS
330
47
102
}
330
47
100
AcDbScale
 70
     0
300
6" = 1'-0"
140
6.0
141
12.0
290
     0
  0
SCALE
  5
68
102
{ACAD_REACTORS
330
47
102
}
330
47
100
AcDbScale
 70
     0
300
1'-0" = 1'-0"
140
12.0
141
12.0
290
     0
  0
ENDSEC
  0
EOF
